ISO-10303-21;
HEADER;
FILE_DESCRIPTION (( 'STEP AP203' ),
    '1' );
FILE_NAME ('QM-CAHWP-15-650-1100-M.STEP',
    '2021-01-05T02:35:04',
    ( '' ),
    ( '' ),
    'SwSTEP 2.0',
    'SolidWorks 2020',
    '' );
FILE_SCHEMA (( 'CONFIG_CONTROL_DESIGN' ));
ENDSEC;

DATA;
#1 = CARTESIAN_POINT ( 'NONE',  ( -0.5000000000000004441, 0.000000000000000000, 0.000000000000000000 ) ) ;
#2 = ORIENTED_EDGE ( 'NONE', *, *, #180, .F. ) ;
#3 = CARTESIAN_POINT ( 'NONE',  ( -1.614212418857619014, 9.184850993605145972E-16, -7.499999999999998224 ) ) ;
#4 = AXIS2_PLACEMENT_3D ( 'NONE', #291, #264, #15 ) ;
#5 = APPROVAL ( #82, 'UNSPECIFIED' ) ;
#6 = COORDINATED_UNIVERSAL_TIME_OFFSET ( 8, 0, .AHEAD. ) ;
#7 = FACE_OUTER_BOUND ( 'NONE', #307, .T. ) ;
#8 = AXIS2_PLACEMENT_3D ( 'NONE', #171, #328, #249 ) ;
#9 = CARTESIAN_POINT ( 'NONE',  ( -1.614212418857619014, 0.000000000000000000, 0.000000000000000000 ) ) ;
#10 = ORIENTED_EDGE ( 'NONE', *, *, #250, .T. ) ;
#11 = CC_DESIGN_PERSON_AND_ORGANIZATION_ASSIGNMENT ( #265, #217, ( #68 ) ) ;
#12 = CARTESIAN_POINT ( 'NONE',  ( -3.000000000000000000, 0.000000000000000000, 0.000000000000000000 ) ) ;
#13 = EDGE_LOOP ( 'NONE', ( #104, #146 ) ) ;
#14 = AXIS2_PLACEMENT_3D ( 'NONE', #323, #266, #141 ) ;
#15 = DIRECTION ( 'NONE',  ( -0.000000000000000000, 0.000000000000000000, 1.000000000000000000 ) ) ;
#16 = DIRECTION ( 'NONE',  ( -1.000000000000000000, -0.000000000000000000, -0.000000000000000000 ) ) ;
#17 = APPLICATION_CONTEXT ( 'configuration controlled 3d designs of mechanical parts and assemblies' ) ;
#18 = DIRECTION ( 'NONE',  ( 0.000000000000000000, 0.000000000000000000, -1.000000000000000000 ) ) ;
#19 = ORGANIZATION ( 'UNSPECIFIED', 'UNSPECIFIED', '' ) ;
#20 = ADVANCED_FACE ( 'NONE', ( #287, #230 ), #286, .F. ) ;
#21 = CLOSED_SHELL ( 'NONE', ( #210, #168, #86, #46, #231, #150, #20, #72, #66, #131 ) ) ;
#22 = CALENDAR_DATE ( 2021, 5, 1 ) ;
#23 = ORIENTED_EDGE ( 'NONE', *, *, #187, .F. ) ;
#24 = PERSON_AND_ORGANIZATION ( #65, #19 ) ;
#25 = EDGE_LOOP ( 'NONE', ( #85, #77 ) ) ;
#26 = ORIENTED_EDGE ( 'NONE', *, *, #261, .F. ) ;
#27 = VERTEX_POINT ( 'NONE', #158 ) ;
#28 = AXIS2_PLACEMENT_3D ( 'NONE', #246, #186, #144 ) ;
#29 = AXIS2_PLACEMENT_3D ( 'NONE', #149, #45, #200 ) ;
#30 = PLANE ( 'NONE',  #267 ) ;
#31 = CARTESIAN_POINT ( 'NONE',  ( 3.000000000000000000, 0.000000000000000000, 7.499999999999997335 ) ) ;
#32 = DATE_TIME_ROLE ( 'creation_date' ) ;
#33 = PLANE ( 'NONE',  #4 ) ;
#34 = PERSON_AND_ORGANIZATION ( #65, #19 ) ;
#35 = CYLINDRICAL_SURFACE ( 'NONE', #28, 7.499999999999998224 ) ;
#36 = LOCAL_TIME ( 10, 35, 4.000000000000000000, #155 ) ;
#37 = PRODUCT ( 'QM-CAHWP-15-650-1100-M', 'QM-CAHWP-15-650-1100-M', '', ( #228 ) ) ;
#38 = LINE ( 'NONE', #145, #303 ) ;
#39 = VERTEX_POINT ( 'NONE', #235 ) ;
#40 = DIRECTION ( 'NONE',  ( -1.000000000000000000, -0.000000000000000000, -0.000000000000000000 ) ) ;
#41 = CYLINDRICAL_SURFACE ( 'NONE', #241, 7.499999999999998224 ) ;
#42 = CIRCLE ( 'NONE', #160, 7.500000000000000000 ) ;
#43 = AXIS2_PLACEMENT_3D ( 'NONE', #64, #115, #92 ) ;
#44 = EDGE_CURVE ( 'NONE', #181, #316, #55, .T. ) ;
#45 = DIRECTION ( 'NONE',  ( -1.000000000000000000, -0.000000000000000000, -0.000000000000000000 ) ) ;
#46 = ADVANCED_FACE ( 'NONE', ( #234 ), #30, .F. ) ;
#47 = DIRECTION ( 'NONE',  ( 0.000000000000000000, 0.000000000000000000, 1.000000000000000000 ) ) ;
#48 = PERSON_AND_ORGANIZATION ( #65, #19 ) ;
#49 = ORIENTED_EDGE ( 'NONE', *, *, #112, .T. ) ;
#50 = EDGE_CURVE ( 'NONE', #159, #163, #42, .T. ) ;
#51 = CIRCLE ( 'NONE', #313, 12.69999999999999929 ) ;
#52 = CALENDAR_DATE ( 2021, 5, 1 ) ;
#53 = DIRECTION ( 'NONE',  ( 0.000000000000000000, 0.000000000000000000, -1.000000000000000000 ) ) ;
#54 = EDGE_LOOP ( 'NONE', ( #62, #284, #167, #293 ) ) ;
#55 = CIRCLE ( 'NONE', #139, 7.499999999999998224 ) ;
#56 = CARTESIAN_POINT ( 'NONE',  ( -3.000000000000000000, 7.500000000000000000, 0.000000000000000000 ) ) ;
#57 = AXIS2_PLACEMENT_3D ( 'NONE', #302, #40, #98 ) ;
#58 = ORIENTED_EDGE ( 'NONE', *, *, #44, .T. ) ;
#59 = COORDINATED_UNIVERSAL_TIME_OFFSET ( 8, 0, .AHEAD. ) ;
#60 = DIRECTION ( 'NONE',  ( -1.000000000000000000, -0.000000000000000000, -0.000000000000000000 ) ) ;
#61 = DIRECTION ( 'NONE',  ( 0.000000000000000000, 0.000000000000000000, 1.000000000000000000 ) ) ;
#62 = ORIENTED_EDGE ( 'NONE', *, *, #295, .T. ) ;
#63 = DIRECTION ( 'NONE',  ( 0.000000000000000000, 0.000000000000000000, 1.000000000000000000 ) ) ;
#64 = CARTESIAN_POINT ( 'NONE',  ( 3.000000000000000000, 0.000000000000000000, 0.000000000000000000 ) ) ;
#65 = PERSON ( 'UNSPECIFIED', 'UNSPECIFIED', 'UNSPECIFIED', ('UNSPECIFIED'), ('UNSPECIFIED'), ('UNSPECIFIED') ) ;
#66 = ADVANCED_FACE ( 'NONE', ( #103, #272 ), #33, .F. ) ;
#67 = DIRECTION ( 'NONE',  ( -1.000000000000000000, -0.000000000000000000, -0.000000000000000000 ) ) ;
#68 = PRODUCT_DEFINITION ( 'UNKNOWN', '', #257, #321 ) ;
#69 = CARTESIAN_POINT ( 'NONE',  ( -3.000000000000000000, 0.000000000000000000, 0.000000000000000000 ) ) ;
#70 = CIRCLE ( 'NONE', #113, 7.500000000000000000 ) ;
#71 =( LENGTH_UNIT ( ) NAMED_UNIT ( * ) SI_UNIT ( .MILLI., .METRE. ) );
#72 = ADVANCED_FACE ( 'NONE', ( #215 ), #88, .T. ) ;
#73 = CARTESIAN_POINT ( 'NONE',  ( -1.614212418857619014, 0.000000000000000000, 7.499999999999998224 ) ) ;
#74 = CC_DESIGN_PERSON_AND_ORGANIZATION_ASSIGNMENT ( #201, #309, ( #257 ) ) ;
#75 = AXIS2_PLACEMENT_3D ( 'NONE', #119, #317, #63 ) ;
#76 = DATE_AND_TIME ( #253, #225 ) ;
#77 = ORIENTED_EDGE ( 'NONE', *, *, #137, .T. ) ;
#78 = VECTOR ( 'NONE', #244, 1000.000000000000000 ) ;
#79 = PRODUCT_DEFINITION_SHAPE ( 'NONE', 'NONE',  #68 ) ;
#80 = ORIENTED_EDGE ( 'NONE', *, *, #50, .T. ) ;
#81 = CC_DESIGN_SECURITY_CLASSIFICATION ( #296, ( #257 ) ) ;
#82 = APPROVAL_STATUS ( 'not_yet_approved' ) ;
#83 = ORIENTED_EDGE ( 'NONE', *, *, #108, .F. ) ;
#84 = ORIENTED_EDGE ( 'NONE', *, *, #123, .T. ) ;
#85 = ORIENTED_EDGE ( 'NONE', *, *, #242, .T. ) ;
#86 = ADVANCED_FACE ( 'NONE', ( #7 ), #193, .F. ) ;
#87 = CIRCLE ( 'NONE', #29, 12.69999999999999929 ) ;
#88 = CYLINDRICAL_SURFACE ( 'NONE', #75, 12.69999999999999929 ) ;
#89 = UNCERTAINTY_MEASURE_WITH_UNIT (LENGTH_MEASURE( 1.000000000000000082E-05 ), #71, 'distance_accuracy_value', 'NONE');
#90 = CARTESIAN_POINT ( 'NONE',  ( -0.5000000000000004441, 7.500000000000000000, 0.000000000000000000 ) ) ;
#91 = VERTEX_POINT ( 'NONE', #118 ) ;
#92 = DIRECTION ( 'NONE',  ( 0.000000000000000000, 0.000000000000000000, 1.000000000000000000 ) ) ;
#93 = DIRECTION ( 'NONE',  ( 0.000000000000000000, 0.000000000000000000, 1.000000000000000000 ) ) ;
#94 = FACE_OUTER_BOUND ( 'NONE', #204, .T. ) ;
#95 = DIRECTION ( 'NONE',  ( 0.000000000000000000, 0.000000000000000000, 1.000000000000000000 ) ) ;
#96 = CARTESIAN_POINT ( 'NONE',  ( -0.5000000000000004441, 0.000000000000000000, 0.000000000000000000 ) ) ;
#97 = LOCAL_TIME ( 10, 35, 4.000000000000000000, #282 ) ;
#98 = DIRECTION ( 'NONE',  ( 0.000000000000000000, 0.000000000000000000, 1.000000000000000000 ) ) ;
#99 = APPLICATION_CONTEXT ( 'configuration controlled 3d designs of mechanical parts and assemblies' ) ;
#100 = DIRECTION ( 'NONE',  ( -1.000000000000000000, -0.000000000000000000, -0.000000000000000000 ) ) ;
#101 = AXIS2_PLACEMENT_3D ( 'NONE', #96, #125, #18 ) ;
#102 = PERSON_AND_ORGANIZATION ( #65, #19 ) ;
#103 = FACE_OUTER_BOUND ( 'NONE', #271, .T. ) ;
#104 = ORIENTED_EDGE ( 'NONE', *, *, #214, .F. ) ;
#105 = PERSON_AND_ORGANIZATION_ROLE ( 'design_supplier' ) ;
#106 = DIRECTION ( 'NONE',  ( -1.000000000000000000, 0.000000000000000000, -0.000000000000000000 ) ) ;
#107 = ORIENTED_EDGE ( 'NONE', *, *, #190, .F. ) ;
#108 = EDGE_CURVE ( 'NONE', #116, #182, #245, .T. ) ;
#109 = ORIENTED_EDGE ( 'NONE', *, *, #153, .T. ) ;
#110 = DIRECTION ( 'NONE',  ( -1.000000000000000000, -0.000000000000000000, -0.000000000000000000 ) ) ;
#111 = APPROVAL_STATUS ( 'not_yet_approved' ) ;
#112 = EDGE_CURVE ( 'NONE', #179, #182, #240, .T. ) ;
#113 = AXIS2_PLACEMENT_3D ( 'NONE', #164, #110, #61 ) ;
#114 = CIRCLE ( 'NONE', #8, 7.500000000000000000 ) ;
#115 = DIRECTION ( 'NONE',  ( -1.000000000000000000, -0.000000000000000000, -0.000000000000000000 ) ) ;
#116 = VERTEX_POINT ( 'NONE', #169 ) ;
#117 = SHAPE_DEFINITION_REPRESENTATION ( #79, #133 ) ;
#118 = CARTESIAN_POINT ( 'NONE',  ( 3.000000000000000000, 9.184850993605144000E-16, -7.499999999999997335 ) ) ;
#119 = CARTESIAN_POINT ( 'NONE',  ( -1.614212418857619014, 0.000000000000000000, 0.000000000000000000 ) ) ;
#120 = DIRECTION ( 'NONE',  ( -1.000000000000000000, -0.000000000000000000, -0.000000000000000000 ) ) ;
#121 = APPROVAL_PERSON_ORGANIZATION ( #48, #147, #312 ) ;
#122 = DIRECTION ( 'NONE',  ( -1.000000000000000000, -0.000000000000000000, -0.000000000000000000 ) ) ;
#123 = EDGE_CURVE ( 'NONE', #39, #333, #310, .T. ) ;
#124 = LINE ( 'NONE', #73, #196 ) ;
#125 = DIRECTION ( 'NONE',  ( 1.000000000000000000, 0.000000000000000000, 0.000000000000000000 ) ) ;
#126 = APPROVAL_ROLE ( '' ) ;
#127 = ORIENTED_EDGE ( 'NONE', *, *, #305, .T. ) ;
#128 = VECTOR ( 'NONE', #301, 1000.000000000000000 ) ;
#129 = EDGE_LOOP ( 'NONE', ( #220, #23 ) ) ;
#130 = DIRECTION ( 'NONE',  ( 1.000000000000000000, 0.000000000000000000, 0.000000000000000000 ) ) ;
#131 = ADVANCED_FACE ( 'NONE', ( #319 ), #325, .F. ) ;
#132 = EDGE_LOOP ( 'NONE', ( #188, #83 ) ) ;
#133 = ADVANCED_BREP_SHAPE_REPRESENTATION ( 'QM-CAHWP-15-650-1100-M', ( #227, #191 ), #278 ) ;
#134 = LOCAL_TIME ( 10, 35, 4.000000000000000000, #6 ) ;
#135 = DIRECTION ( 'NONE',  ( -0.000000000000000000, 0.000000000000000000, 1.000000000000000000 ) ) ;
#136 = CYLINDRICAL_SURFACE ( 'NONE', #255, 7.499999999999998224 ) ;
#137 = EDGE_CURVE ( 'NONE', #314, #27, #238, .T. ) ;
#138 = DATE_AND_TIME ( #22, #152 ) ;
#139 = AXIS2_PLACEMENT_3D ( 'NONE', #1, #130, #209 ) ;
#140 = AXIS2_PLACEMENT_3D ( 'NONE', #90, #274, #243 ) ;
#141 = DIRECTION ( 'NONE',  ( 0.000000000000000000, 0.000000000000000000, 1.000000000000000000 ) ) ;
#142 = PRODUCT_RELATED_PRODUCT_CATEGORY ( 'detail', '', ( #37 ) ) ;
#143 = CIRCLE ( 'NONE', #329, 7.499999999999997335 ) ;
#144 = DIRECTION ( 'NONE',  ( 0.000000000000000000, 0.000000000000000000, 1.000000000000000000 ) ) ;
#145 = CARTESIAN_POINT ( 'NONE',  ( -1.614212418857619014, 1.555301434917138433E-15, -12.69999999999999929 ) ) ;
#146 = ORIENTED_EDGE ( 'NONE', *, *, #44, .F. ) ;
#147 = APPROVAL ( #229, 'UNSPECIFIED' ) ;
#148 = FACE_OUTER_BOUND ( 'NONE', #273, .T. ) ;
#149 = CARTESIAN_POINT ( 'NONE',  ( 3.000000000000000000, 0.000000000000000000, 0.000000000000000000 ) ) ;
#150 = ADVANCED_FACE ( 'NONE', ( #148 ), #35, .F. ) ;
#151 = CARTESIAN_POINT ( 'NONE',  ( -0.5000000000000004441, 0.000000000000000000, 7.499999999999998224 ) ) ;
#152 = LOCAL_TIME ( 10, 35, 4.000000000000000000, #59 ) ;
#153 = EDGE_CURVE ( 'NONE', #333, #27, #189, .T. ) ;
#154 = DIRECTION ( 'NONE',  ( 1.000000000000000000, 0.000000000000000000, 0.000000000000000000 ) ) ;
#155 = COORDINATED_UNIVERSAL_TIME_OFFSET ( 8, 0, .AHEAD. ) ;
#156 = ORIENTED_EDGE ( 'NONE', *, *, #137, .F. ) ;
#157 = CALENDAR_DATE ( 2021, 5, 1 ) ;
#158 = CARTESIAN_POINT ( 'NONE',  ( -3.000000000000000000, 0.000000000000000000, 12.69999999999999929 ) ) ;
#159 = VERTEX_POINT ( 'NONE', #218 ) ;
#160 = AXIS2_PLACEMENT_3D ( 'NONE', #236, #183, #332 ) ;
#161 = ORIENTED_EDGE ( 'NONE', *, *, #108, .T. ) ;
#162 = CC_DESIGN_APPROVAL ( #5, ( #68 ) ) ;
#163 = VERTEX_POINT ( 'NONE', #219 ) ;
#164 = CARTESIAN_POINT ( 'NONE',  ( -3.000000000000000000, 0.000000000000000000, 0.000000000000000000 ) ) ;
#165 = DIRECTION ( 'NONE',  ( -1.000000000000000000, -0.000000000000000000, -0.000000000000000000 ) ) ;
#166 = ORIENTED_EDGE ( 'NONE', *, *, #123, .F. ) ;
#167 = ORIENTED_EDGE ( 'NONE', *, *, #242, .F. ) ;
#168 = ADVANCED_FACE ( 'NONE', ( #94 ), #136, .F. ) ;
#169 = CARTESIAN_POINT ( 'NONE',  ( 0.5000000000000008882, 9.184850993605147944E-16, -7.500000000000000000 ) ) ;
#170 = DIRECTION ( 'NONE',  ( 0.000000000000000000, 0.000000000000000000, 1.000000000000000000 ) ) ;
#171 = CARTESIAN_POINT ( 'NONE',  ( 0.5000000000000008882, 0.000000000000000000, 0.000000000000000000 ) ) ;
#172 =( NAMED_UNIT ( * ) PLANE_ANGLE_UNIT ( ) SI_UNIT ( $, .RADIAN. ) );
#173 = VECTOR ( 'NONE', #60, 1000.000000000000000 ) ;
#174 = CC_DESIGN_APPROVAL ( #327, ( #257 ) ) ;
#175 = CC_DESIGN_DATE_AND_TIME_ASSIGNMENT ( #76, #32, ( #68 ) ) ;
#176 = PERSON_AND_ORGANIZATION_ROLE ( 'design_owner' ) ;
#177 = APPLICATION_PROTOCOL_DEFINITION ( 'international standard', 'config_control_design', 1994, #17 ) ;
#178 = ORIENTED_EDGE ( 'NONE', *, *, #290, .F. ) ;
#179 = VERTEX_POINT ( 'NONE', #31 ) ;
#180 = EDGE_CURVE ( 'NONE', #181, #163, #237, .T. ) ;
#181 = VERTEX_POINT ( 'NONE', #322 ) ;
#182 = VERTEX_POINT ( 'NONE', #294 ) ;
#183 = DIRECTION ( 'NONE',  ( -1.000000000000000000, -0.000000000000000000, -0.000000000000000000 ) ) ;
#184 = CC_DESIGN_PERSON_AND_ORGANIZATION_ASSIGNMENT ( #239, #105, ( #257 ) ) ;
#185 = DIRECTION ( 'NONE',  ( 0.000000000000000000, 0.000000000000000000, 1.000000000000000000 ) ) ;
#186 = DIRECTION ( 'NONE',  ( -1.000000000000000000, -0.000000000000000000, -0.000000000000000000 ) ) ;
#187 = EDGE_CURVE ( 'NONE', #163, #159, #70, .T. ) ;
#188 = ORIENTED_EDGE ( 'NONE', *, *, #305, .F. ) ;
#189 = LINE ( 'NONE', #292, #173 ) ;
#190 = EDGE_CURVE ( 'NONE', #39, #314, #38, .T. ) ;
#191 = AXIS2_PLACEMENT_3D ( 'NONE', #277, #47, #154 ) ;
#192 = DIRECTION ( 'NONE',  ( -1.000000000000000000, -0.000000000000000000, -0.000000000000000000 ) ) ;
#193 = CYLINDRICAL_SURFACE ( 'NONE', #194, 7.499999999999998224 ) ;
#194 = AXIS2_PLACEMENT_3D ( 'NONE', #222, #211, #185 ) ;
#195 = LINE ( 'NONE', #275, #128 ) ;
#196 = VECTOR ( 'NONE', #122, 1000.000000000000000 ) ;
#197 = DIRECTION ( 'NONE',  ( -1.000000000000000000, -0.000000000000000000, -0.000000000000000000 ) ) ;
#198 = CIRCLE ( 'NONE', #288, 7.499999999999997335 ) ;
#199 = CARTESIAN_POINT ( 'NONE',  ( 3.000000000000000000, 0.000000000000000000, 0.000000000000000000 ) ) ;
#200 = DIRECTION ( 'NONE',  ( 0.000000000000000000, 0.000000000000000000, 1.000000000000000000 ) ) ;
#201 = PERSON_AND_ORGANIZATION ( #65, #19 ) ;
#202 = ORIENTED_EDGE ( 'NONE', *, *, #295, .F. ) ;
#203 = PERSON_AND_ORGANIZATION ( #65, #19 ) ;
#204 = EDGE_LOOP ( 'NONE', ( #320, #281, #283, #259 ) ) ;
#205 = PERSON_AND_ORGANIZATION_ROLE ( 'classification_officer' ) ;
#206 = ORIENTED_EDGE ( 'NONE', *, *, #290, .T. ) ;
#207 = APPROVAL_PERSON_ORGANIZATION ( #203, #5, #233 ) ;
#208 = ORIENTED_EDGE ( 'NONE', *, *, #112, .F. ) ;
#209 = DIRECTION ( 'NONE',  ( 0.000000000000000000, 0.000000000000000000, -1.000000000000000000 ) ) ;
#210 = ADVANCED_FACE ( 'NONE', ( #297 ), #224, .T. ) ;
#211 = DIRECTION ( 'NONE',  ( -1.000000000000000000, -0.000000000000000000, -0.000000000000000000 ) ) ;
#212 = DATE_AND_TIME ( #52, #97 ) ;
#213 = APPROVAL_PERSON_ORGANIZATION ( #102, #327, #126 ) ;
#214 = EDGE_CURVE ( 'NONE', #316, #181, #300, .T. ) ;
#215 = FACE_OUTER_BOUND ( 'NONE', #315, .T. ) ;
#216 = ORIENTED_EDGE ( 'NONE', *, *, #223, .T. ) ;
#217 = PERSON_AND_ORGANIZATION_ROLE ( 'creator' ) ;
#218 = CARTESIAN_POINT ( 'NONE',  ( -3.000000000000000000, 0.000000000000000000, 7.500000000000000000 ) ) ;
#219 = CARTESIAN_POINT ( 'NONE',  ( -3.000000000000000000, 9.184850993605147944E-16, -7.500000000000000000 ) ) ;
#220 = ORIENTED_EDGE ( 'NONE', *, *, #50, .F. ) ;
#221 = VECTOR ( 'NONE', #120, 1000.000000000000000 ) ;
#222 = CARTESIAN_POINT ( 'NONE',  ( -1.614212418857619014, 0.000000000000000000, 0.000000000000000000 ) ) ;
#223 = EDGE_CURVE ( 'NONE', #316, #159, #124, .T. ) ;
#224 = CYLINDRICAL_SURFACE ( 'NONE', #57, 12.69999999999999929 ) ;
#225 = LOCAL_TIME ( 10, 35, 4.000000000000000000, #254 ) ;
#226 = CARTESIAN_POINT ( 'NONE',  ( 3.000000000000000000, 0.000000000000000000, 12.69999999999999929 ) ) ;
#227 = MANIFOLD_SOLID_BREP ( 'Ðý×', #21 ) ;
#228 = MECHANICAL_CONTEXT ( 'NONE', #99, 'mechanical' ) ;
#229 = APPROVAL_STATUS ( 'not_yet_approved' ) ;
#230 = FACE_OUTER_BOUND ( 'NONE', #25, .T. ) ;
#231 = ADVANCED_FACE ( 'NONE', ( #251 ), #41, .F. ) ;
#232 = ORIENTED_EDGE ( 'NONE', *, *, #261, .T. ) ;
#233 = APPROVAL_ROLE ( '' ) ;
#234 = FACE_OUTER_BOUND ( 'NONE', #132, .T. ) ;
#235 = CARTESIAN_POINT ( 'NONE',  ( 3.000000000000000000, 1.555301434917138433E-15, -12.69999999999999929 ) ) ;
#236 = CARTESIAN_POINT ( 'NONE',  ( -3.000000000000000000, 0.000000000000000000, 0.000000000000000000 ) ) ;
#237 = LINE ( 'NONE', #3, #221 ) ;
#238 = CIRCLE ( 'NONE', #269, 12.69999999999999929 ) ;
#239 = PERSON_AND_ORGANIZATION ( #65, #19 ) ;
#240 = LINE ( 'NONE', #298, #78 ) ;
#241 = AXIS2_PLACEMENT_3D ( 'NONE', #330, #100, #326 ) ;
#242 = EDGE_CURVE ( 'NONE', #27, #314, #51, .T. ) ;
#243 = DIRECTION ( 'NONE',  ( 0.000000000000000000, 0.000000000000000000, -1.000000000000000000 ) ) ;
#244 = DIRECTION ( 'NONE',  ( -1.000000000000000000, -0.000000000000000000, -0.000000000000000000 ) ) ;
#245 = CIRCLE ( 'NONE', #14, 7.500000000000000000 ) ;
#246 = CARTESIAN_POINT ( 'NONE',  ( -1.614212418857619014, 0.000000000000000000, 0.000000000000000000 ) ) ;
#247 =( NAMED_UNIT ( * ) SI_UNIT ( $, .STERADIAN. ) SOLID_ANGLE_UNIT ( ) );
#248 = CARTESIAN_POINT ( 'NONE',  ( -3.000000000000000000, 1.555301434917138433E-15, -12.69999999999999929 ) ) ;
#249 = DIRECTION ( 'NONE',  ( 0.000000000000000000, 0.000000000000000000, 1.000000000000000000 ) ) ;
#250 = EDGE_CURVE ( 'NONE', #91, #179, #198, .T. ) ;
#251 = FACE_OUTER_BOUND ( 'NONE', #256, .T. ) ;
#252 = APPLICATION_PROTOCOL_DEFINITION ( 'international standard', 'config_control_design', 1994, #99 ) ;
#253 = CALENDAR_DATE ( 2021, 5, 1 ) ;
#254 = COORDINATED_UNIVERSAL_TIME_OFFSET ( 8, 0, .AHEAD. ) ;
#255 = AXIS2_PLACEMENT_3D ( 'NONE', #9, #67, #93 ) ;
#256 = EDGE_LOOP ( 'NONE', ( #26, #178, #49, #127 ) ) ;
#257 = PRODUCT_DEFINITION_FORMATION_WITH_SPECIFIED_SOURCE ( 'ANY', '', #37, .NOT_KNOWN. ) ;
#258 = SECURITY_CLASSIFICATION_LEVEL ( 'unclassified' ) ;
#259 = ORIENTED_EDGE ( 'NONE', *, *, #223, .F. ) ;
#260 = EDGE_LOOP ( 'NONE', ( #206, #10 ) ) ;
#261 = EDGE_CURVE ( 'NONE', #91, #116, #195, .T. ) ;
#262 = DIRECTION ( 'NONE',  ( 1.000000000000000000, 0.000000000000000000, 0.000000000000000000 ) ) ;
#263 = CC_DESIGN_APPROVAL ( #147, ( #296 ) ) ;
#264 = DIRECTION ( 'NONE',  ( -1.000000000000000000, 0.000000000000000000, -0.000000000000000000 ) ) ;
#265 = PERSON_AND_ORGANIZATION ( #65, #19 ) ;
#266 = DIRECTION ( 'NONE',  ( -1.000000000000000000, -0.000000000000000000, -0.000000000000000000 ) ) ;
#267 = AXIS2_PLACEMENT_3D ( 'NONE', #335, #106, #135 ) ;
#268 = CC_DESIGN_DATE_AND_TIME_ASSIGNMENT ( #279, #280, ( #296 ) ) ;
#269 = AXIS2_PLACEMENT_3D ( 'NONE', #12, #165, #270 ) ;
#270 = DIRECTION ( 'NONE',  ( 0.000000000000000000, 0.000000000000000000, 1.000000000000000000 ) ) ;
#271 = EDGE_LOOP ( 'NONE', ( #202, #166 ) ) ;
#272 = FACE_BOUND ( 'NONE', #260, .T. ) ;
#273 = EDGE_LOOP ( 'NONE', ( #2, #58, #216, #80 ) ) ;
#274 = DIRECTION ( 'NONE',  ( 1.000000000000000000, 0.000000000000000000, 0.000000000000000000 ) ) ;
#275 = CARTESIAN_POINT ( 'NONE',  ( -1.614212418857619014, 9.184850993605145972E-16, -7.499999999999998224 ) ) ;
#276 = DIRECTION ( 'NONE',  ( -1.000000000000000000, -0.000000000000000000, -0.000000000000000000 ) ) ;
#277 = CARTESIAN_POINT ( 'NONE',  ( 0.000000000000000000, 0.000000000000000000, 0.000000000000000000 ) ) ;
#278 =( GEOMETRIC_REPRESENTATION_CONTEXT ( 3 ) GLOBAL_UNCERTAINTY_ASSIGNED_CONTEXT ( ( #89 ) ) GLOBAL_UNIT_ASSIGNED_CONTEXT ( ( #71, #172, #247 ) ) REPRESENTATION_CONTEXT ( 'NONE', 'WORKASPACE' ) );
#279 = DATE_AND_TIME ( #157, #134 ) ;
#280 = DATE_TIME_ROLE ( 'classification_date' ) ;
#281 = ORIENTED_EDGE ( 'NONE', *, *, #180, .T. ) ;
#282 = COORDINATED_UNIVERSAL_TIME_OFFSET ( 8, 0, .AHEAD. ) ;
#283 = ORIENTED_EDGE ( 'NONE', *, *, #187, .T. ) ;
#284 = ORIENTED_EDGE ( 'NONE', *, *, #190, .T. ) ;
#285 = CC_DESIGN_PERSON_AND_ORGANIZATION_ASSIGNMENT ( #34, #205, ( #296 ) ) ;
#286 = PLANE ( 'NONE',  #308 ) ;
#287 = FACE_BOUND ( 'NONE', #129, .T. ) ;
#288 = AXIS2_PLACEMENT_3D ( 'NONE', #199, #276, #95 ) ;
#289 = APPROVAL_DATE_TIME ( #138, #327 ) ;
#290 = EDGE_CURVE ( 'NONE', #179, #91, #143, .T. ) ;
#291 = CARTESIAN_POINT ( 'NONE',  ( 3.000000000000000000, 12.69999999999999929, 0.000000000000000000 ) ) ;
#292 = CARTESIAN_POINT ( 'NONE',  ( -1.614212418857619014, 0.000000000000000000, 12.69999999999999929 ) ) ;
#293 = ORIENTED_EDGE ( 'NONE', *, *, #153, .F. ) ;
#294 = CARTESIAN_POINT ( 'NONE',  ( 0.5000000000000008882, 0.000000000000000000, 7.500000000000000000 ) ) ;
#295 = EDGE_CURVE ( 'NONE', #333, #39, #87, .T. ) ;
#296 = SECURITY_CLASSIFICATION ( '', '', #258 ) ;
#297 = FACE_OUTER_BOUND ( 'NONE', #54, .T. ) ;
#298 = CARTESIAN_POINT ( 'NONE',  ( -1.614212418857619014, 0.000000000000000000, 7.499999999999998224 ) ) ;
#299 = DIRECTION ( 'NONE',  ( 0.000000000000000000, 0.000000000000000000, 1.000000000000000000 ) ) ;
#300 = CIRCLE ( 'NONE', #101, 7.499999999999998224 ) ;
#301 = DIRECTION ( 'NONE',  ( -1.000000000000000000, -0.000000000000000000, -0.000000000000000000 ) ) ;
#302 = CARTESIAN_POINT ( 'NONE',  ( -1.614212418857619014, 0.000000000000000000, 0.000000000000000000 ) ) ;
#303 = VECTOR ( 'NONE', #192, 1000.000000000000000 ) ;
#304 = CARTESIAN_POINT ( 'NONE',  ( 3.000000000000000000, 0.000000000000000000, 0.000000000000000000 ) ) ;
#305 = EDGE_CURVE ( 'NONE', #182, #116, #114, .T. ) ;
#306 = APPROVAL_DATE_TIME ( #318, #147 ) ;
#307 = EDGE_LOOP ( 'NONE', ( #311, #232, #161, #208 ) ) ;
#308 = AXIS2_PLACEMENT_3D ( 'NONE', #56, #262, #53 ) ;
#309 = PERSON_AND_ORGANIZATION_ROLE ( 'creator' ) ;
#310 = CIRCLE ( 'NONE', #43, 12.69999999999999929 ) ;
#311 = ORIENTED_EDGE ( 'NONE', *, *, #250, .F. ) ;
#312 = APPROVAL_ROLE ( '' ) ;
#313 = AXIS2_PLACEMENT_3D ( 'NONE', #69, #197, #170 ) ;
#314 = VERTEX_POINT ( 'NONE', #248 ) ;
#315 = EDGE_LOOP ( 'NONE', ( #107, #84, #109, #156 ) ) ;
#316 = VERTEX_POINT ( 'NONE', #151 ) ;
#317 = DIRECTION ( 'NONE',  ( -1.000000000000000000, -0.000000000000000000, -0.000000000000000000 ) ) ;
#318 = DATE_AND_TIME ( #331, #36 ) ;
#319 = FACE_OUTER_BOUND ( 'NONE', #13, .T. ) ;
#320 = ORIENTED_EDGE ( 'NONE', *, *, #214, .T. ) ;
#321 = DESIGN_CONTEXT ( 'detailed design', #17, 'design' ) ;
#322 = CARTESIAN_POINT ( 'NONE',  ( -0.5000000000000004441, 9.184850993605145972E-16, -7.499999999999998224 ) ) ;
#323 = CARTESIAN_POINT ( 'NONE',  ( 0.5000000000000008882, 0.000000000000000000, 0.000000000000000000 ) ) ;
#324 = CC_DESIGN_PERSON_AND_ORGANIZATION_ASSIGNMENT ( #24, #176, ( #37 ) ) ;
#325 = PLANE ( 'NONE',  #140 ) ;
#326 = DIRECTION ( 'NONE',  ( 0.000000000000000000, 0.000000000000000000, 1.000000000000000000 ) ) ;
#327 = APPROVAL ( #111, 'UNSPECIFIED' ) ;
#328 = DIRECTION ( 'NONE',  ( -1.000000000000000000, -0.000000000000000000, -0.000000000000000000 ) ) ;
#329 = AXIS2_PLACEMENT_3D ( 'NONE', #304, #16, #299 ) ;
#330 = CARTESIAN_POINT ( 'NONE',  ( -1.614212418857619014, 0.000000000000000000, 0.000000000000000000 ) ) ;
#331 = CALENDAR_DATE ( 2021, 5, 1 ) ;
#332 = DIRECTION ( 'NONE',  ( 0.000000000000000000, 0.000000000000000000, 1.000000000000000000 ) ) ;
#333 = VERTEX_POINT ( 'NONE', #226 ) ;
#334 = APPROVAL_DATE_TIME ( #212, #5 ) ;
#335 = CARTESIAN_POINT ( 'NONE',  ( 0.5000000000000004441, 7.500000000000000000, 0.000000000000000000 ) ) ;
ENDSEC;
END-ISO-10303-21;
